ISO-10303-21;
HEADER;
FILE_DESCRIPTION((''),'2;1');
FILE_NAME('00114-2000-D0011','2017-10-26T',('johnarm'),(
'Rosemount Measurement Division'),'CREO PARAMETRIC BY PTC INC, 2016050',
'CREO PARAMETRIC BY PTC INC, 2016050','');
FILE_SCHEMA(('CONFIG_CONTROL_DESIGN'));
ENDSEC;
DATA;
#1=CARTESIAN_POINT('',(-6.E1,0.E0,0.E0));
#2=DIRECTION('',(-1.E0,0.E0,0.E0));
#3=DIRECTION('',(0.E0,1.E0,0.E0));
#4=AXIS2_PLACEMENT_3D('',#1,#2,#3);
#6=CARTESIAN_POINT('',(-6.E1,0.E0,0.E0));
#7=DIRECTION('',(1.E0,0.E0,0.E0));
#8=DIRECTION('',(0.E0,1.E0,0.E0));
#9=AXIS2_PLACEMENT_3D('',#6,#7,#8);
#11=CARTESIAN_POINT('',(-6.E1,0.E0,0.E0));
#12=DIRECTION('',(-1.E0,0.E0,0.E0));
#13=DIRECTION('',(0.E0,1.E0,0.E0));
#14=AXIS2_PLACEMENT_3D('',#11,#12,#13);
#16=CARTESIAN_POINT('',(-6.E1,0.E0,0.E0));
#17=DIRECTION('',(-1.E0,0.E0,0.E0));
#18=DIRECTION('',(0.E0,-1.E0,0.E0));
#19=AXIS2_PLACEMENT_3D('',#16,#17,#18);
#21=DIRECTION('',(-1.E0,-6.280463554900E-11,0.E0));
#22=VECTOR('',#21,6.000000001649E1);
#23=CARTESIAN_POINT('',(1.648969172319E-8,1.550000000377E1,0.E0));
#24=LINE('',#23,#22);
#25=DIRECTION('',(-1.E0,6.280460594305E-11,0.E0));
#26=VECTOR('',#25,6.000000001649E1);
#27=CARTESIAN_POINT('',(1.648968817047E-8,-1.550000000377E1,0.E0));
#28=LINE('',#27,#26);
#29=CARTESIAN_POINT('',(3.447054552908E-8,0.E0,0.E0));
#30=DIRECTION('',(1.E0,0.E0,0.E0));
#31=DIRECTION('',(0.E0,-1.E0,0.E0));
#32=AXIS2_PLACEMENT_3D('',#29,#30,#31);
#34=CARTESIAN_POINT('',(3.493279621125E-8,0.E0,0.E0));
#35=DIRECTION('',(1.E0,0.E0,0.E0));
#36=DIRECTION('',(0.E0,1.E0,0.E0));
#37=AXIS2_PLACEMENT_3D('',#34,#35,#36);
#39=CARTESIAN_POINT('',(2.924606253865E0,1.616834008123E1,-7.631655724039E-14));
#40=DIRECTION('',(0.E0,0.E0,1.E0));
#41=DIRECTION('',(-9.748687402219E-1,-2.227800245493E-1,0.E0));
#42=AXIS2_PLACEMENT_3D('',#39,#40,#41);
#44=CARTESIAN_POINT('',(2.924606253399E0,-1.616834008125E1,7.644058996892E-14));
#45=DIRECTION('',(0.E0,0.E0,-1.E0));
#46=DIRECTION('',(-9.748687402132E-1,2.227800245871E-1,0.E0));
#47=AXIS2_PLACEMENT_3D('',#44,#45,#46);
#49=CARTESIAN_POINT('',(2.839640350927E0,0.E0,0.E0));
#50=DIRECTION('',(1.E0,0.E0,0.E0));
#51=DIRECTION('',(0.E0,-1.E0,0.E0));
#52=AXIS2_PLACEMENT_3D('',#49,#50,#51);
#54=DIRECTION('',(-9.995988526191E-1,-2.832196749087E-2,0.E0));
#55=VECTOR('',#54,1.472194163670E2);
#56=CARTESIAN_POINT('',(1.5E2,-9.E0,0.E0));
#57=LINE('',#56,#55);
#58=CARTESIAN_POINT('',(1.5E2,0.E0,0.E0));
#59=DIRECTION('',(-1.E0,0.E0,0.E0));
#60=DIRECTION('',(0.E0,1.E0,0.E0));
#61=AXIS2_PLACEMENT_3D('',#58,#59,#60);
#63=DIRECTION('',(-9.995988526191E-1,2.832196749087E-2,0.E0));
#64=VECTOR('',#63,1.472194163670E2);
#65=CARTESIAN_POINT('',(1.5E2,9.E0,0.E0));
#66=LINE('',#65,#64);
#67=CARTESIAN_POINT('',(2.839640351392E0,0.E0,0.E0));
#68=DIRECTION('',(1.E0,0.E0,0.E0));
#69=DIRECTION('',(0.E0,1.E0,0.E0));
#70=AXIS2_PLACEMENT_3D('',#67,#68,#69);
#72=CARTESIAN_POINT('',(1.5E2,0.E0,0.E0));
#73=DIRECTION('',(1.E0,0.E0,0.E0));
#74=DIRECTION('',(0.E0,1.E0,0.E0));
#75=AXIS2_PLACEMENT_3D('',#72,#73,#74);
#77=CARTESIAN_POINT('',(-5.8E1,0.E0,0.E0));
#78=DIRECTION('',(-1.E0,0.E0,0.E0));
#79=DIRECTION('',(0.E0,1.E0,0.E0));
#80=AXIS2_PLACEMENT_3D('',#77,#78,#79);
#82=DIRECTION('',(-7.071067811865E-1,-7.071067811865E-1,0.E0));
#83=VECTOR('',#82,2.828427124746E0);
#84=CARTESIAN_POINT('',(-5.8E1,-9.5E0,0.E0));
#85=LINE('',#84,#83);
#86=CARTESIAN_POINT('',(-5.8E1,0.E0,0.E0));
#87=DIRECTION('',(1.E0,0.E0,0.E0));
#88=DIRECTION('',(0.E0,1.E0,0.E0));
#89=AXIS2_PLACEMENT_3D('',#86,#87,#88);
#91=DIRECTION('',(-7.071067811865E-1,7.071067811865E-1,0.E0));
#92=VECTOR('',#91,2.828427124746E0);
#93=CARTESIAN_POINT('',(-5.8E1,9.5E0,0.E0));
#94=LINE('',#93,#92);
#95=DIRECTION('',(-1.E0,0.E0,0.E0));
#96=VECTOR('',#95,2.1E1);
#97=CARTESIAN_POINT('',(-3.7E1,9.5E0,0.E0));
#98=LINE('',#97,#96);
#99=DIRECTION('',(-1.E0,0.E0,0.E0));
#100=VECTOR('',#99,2.1E1);
#101=CARTESIAN_POINT('',(-3.7E1,-9.5E0,0.E0));
#102=LINE('',#101,#100);
#103=CARTESIAN_POINT('',(-3.7E1,0.E0,0.E0));
#104=DIRECTION('',(1.E0,0.E0,0.E0));
#105=DIRECTION('',(0.E0,1.E0,0.E0));
#106=AXIS2_PLACEMENT_3D('',#103,#104,#105);
#108=CARTESIAN_POINT('',(-3.7E1,0.E0,0.E0));
#109=DIRECTION('',(-1.E0,0.E0,0.E0));
#110=DIRECTION('',(0.E0,1.E0,0.E0));
#111=AXIS2_PLACEMENT_3D('',#108,#109,#110);
#113=CARTESIAN_POINT('',(-3.324462113108E1,0.E0,0.E0));
#114=DIRECTION('',(-1.E0,0.E0,0.E0));
#115=DIRECTION('',(0.E0,1.E0,0.E0));
#116=AXIS2_PLACEMENT_3D('',#113,#114,#115);
#118=CARTESIAN_POINT('',(-3.324462113108E1,0.E0,0.E0));
#119=DIRECTION('',(-1.E0,0.E0,0.E0));
#120=DIRECTION('',(0.E0,0.E0,-1.E0));
#121=AXIS2_PLACEMENT_3D('',#118,#119,#120);
#123=DIRECTION('',(1.E0,0.E0,0.E0));
#124=VECTOR('',#123,1.758446211311E2);
#125=CARTESIAN_POINT('',(-3.324462113108E1,0.E0,3.25E0));
#126=LINE('',#125,#124);
#127=CARTESIAN_POINT('',(1.426E2,0.E0,0.E0));
#128=DIRECTION('',(-1.E0,0.E0,0.E0));
#129=DIRECTION('',(0.E0,0.E0,1.E0));
#130=AXIS2_PLACEMENT_3D('',#127,#128,#129);
#132=CARTESIAN_POINT('',(1.426E2,0.E0,0.E0));
#133=DIRECTION('',(-1.E0,0.E0,0.E0));
#134=DIRECTION('',(0.E0,1.E0,0.E0));
#135=AXIS2_PLACEMENT_3D('',#132,#133,#134);
#137=DIRECTION('',(1.E0,0.E0,0.E0));
#138=VECTOR('',#137,1.758446211311E2);
#139=CARTESIAN_POINT('',(-3.324462113108E1,0.E0,-3.25E0));
#140=LINE('',#139,#138);
#141=CARTESIAN_POINT('',(1.426E2,0.E0,0.E0));
#142=DIRECTION('',(-1.E0,0.E0,0.E0));
#143=DIRECTION('',(0.E0,0.E0,-1.E0));
#144=AXIS2_PLACEMENT_3D('',#141,#142,#143);
#146=CARTESIAN_POINT('',(1.426E2,0.E0,0.E0));
#147=DIRECTION('',(-1.E0,0.E0,0.E0));
#148=DIRECTION('',(0.E0,-1.E0,0.E0));
#149=AXIS2_PLACEMENT_3D('',#146,#147,#148);
#151=CARTESIAN_POINT('',(-3.324462113108E1,0.E0,0.E0));
#152=DIRECTION('',(-1.E0,0.E0,0.E0));
#153=DIRECTION('',(0.E0,0.E0,1.E0));
#154=AXIS2_PLACEMENT_3D('',#151,#152,#153);
#156=DIRECTION('',(-5.150380749101E-1,8.571673007021E-1,0.E0));
#157=VECTOR('',#156,7.291458732596E0);
#158=CARTESIAN_POINT('',(-3.324462113108E1,3.25E0,0.E0));
#159=LINE('',#158,#157);
#160=DIRECTION('',(-5.150380749101E-1,-8.571673007021E-1,0.E0));
#161=VECTOR('',#160,7.291458732596E0);
#162=CARTESIAN_POINT('',(-3.324462113108E1,-3.25E0,0.E0));
#163=LINE('',#162,#161);
#164=CARTESIAN_POINT('',(-3.324462113108E1,0.E0,0.E0));
#165=DIRECTION('',(-1.E0,0.E0,0.E0));
#166=DIRECTION('',(0.E0,-1.E0,0.E0));
#167=AXIS2_PLACEMENT_3D('',#164,#165,#166);
#169=DIRECTION('',(5.240974256643E-1,8.516583167045E-1,0.E0));
#170=VECTOR('',#169,1.908042190309E0);
#171=CARTESIAN_POINT('',(1.426E2,-3.25E0,0.E0));
#172=LINE('',#171,#170);
#173=DIRECTION('',(5.240974256643E-1,-8.516583167045E-1,0.E0));
#174=VECTOR('',#173,1.908042190309E0);
#175=CARTESIAN_POINT('',(1.426E2,3.25E0,0.E0));
#176=LINE('',#175,#174);
#177=DIRECTION('',(6.782801027331E-1,7.348034446275E-1,0.E0));
#178=VECTOR('',#177,2.211475751619E0);
#179=CARTESIAN_POINT('',(1.421E2,0.E0,0.E0));
#180=LINE('',#179,#178);
#181=CARTESIAN_POINT('',(1.436E2,0.E0,0.E0));
#182=DIRECTION('',(-1.E0,0.E0,0.E0));
#183=DIRECTION('',(0.E0,-1.E0,0.E0));
#184=AXIS2_PLACEMENT_3D('',#181,#182,#183);
#186=DIRECTION('',(6.782801027331E-1,-7.348034446275E-1,0.E0));
#187=VECTOR('',#186,2.211475751619E0);
#188=CARTESIAN_POINT('',(1.421E2,0.E0,0.E0));
#189=LINE('',#188,#187);
#190=CARTESIAN_POINT('',(1.436E2,0.E0,0.E0));
#191=DIRECTION('',(1.E0,0.E0,0.E0));
#192=DIRECTION('',(0.E0,-1.E0,0.E0));
#193=AXIS2_PLACEMENT_3D('',#190,#191,#192);
#195=CARTESIAN_POINT('',(-6.E1,1.55E1,0.E0));
#196=CARTESIAN_POINT('',(-6.E1,-1.55E1,0.E0));
#197=VERTEX_POINT('',#195);
#198=VERTEX_POINT('',#196);
#199=CARTESIAN_POINT('',(-3.7E1,9.5E0,0.E0));
#200=CARTESIAN_POINT('',(-5.8E1,9.5E0,0.E0));
#201=VERTEX_POINT('',#199);
#202=VERTEX_POINT('',#200);
#203=CARTESIAN_POINT('',(-3.7E1,-9.5E0,0.E0));
#204=CARTESIAN_POINT('',(-5.8E1,-9.5E0,0.E0));
#205=VERTEX_POINT('',#203);
#206=VERTEX_POINT('',#204);
#207=CARTESIAN_POINT('',(-3.324462113108E1,3.25E0,0.E0));
#208=CARTESIAN_POINT('',(-3.324462113108E1,0.E0,-3.25E0));
#209=VERTEX_POINT('',#207);
#210=VERTEX_POINT('',#208);
#211=CARTESIAN_POINT('',(-3.324462113108E1,-3.25E0,0.E0));
#212=VERTEX_POINT('',#211);
#213=CARTESIAN_POINT('',(-3.324462113108E1,0.E0,3.25E0));
#214=VERTEX_POINT('',#213);
#215=CARTESIAN_POINT('',(1.426E2,0.E0,3.25E0));
#216=VERTEX_POINT('',#215);
#217=CARTESIAN_POINT('',(1.426E2,0.E0,-3.25E0));
#218=VERTEX_POINT('',#217);
#219=CARTESIAN_POINT('',(-6.E1,1.15E1,0.E0));
#220=CARTESIAN_POINT('',(-6.E1,-1.15E1,0.E0));
#221=VERTEX_POINT('',#219);
#222=VERTEX_POINT('',#220);
#223=CARTESIAN_POINT('',(1.421E2,0.E0,0.E0));
#224=CARTESIAN_POINT('',(1.436E2,1.625E0,0.E0));
#225=VERTEX_POINT('',#223);
#226=VERTEX_POINT('',#224);
#227=CARTESIAN_POINT('',(1.436E2,-1.625E0,0.E0));
#228=VERTEX_POINT('',#227);
#229=CARTESIAN_POINT('',(1.426E2,3.25E0,0.E0));
#230=VERTEX_POINT('',#229);
#231=CARTESIAN_POINT('',(1.426E2,-3.25E0,0.E0));
#232=VERTEX_POINT('',#231);
#233=CARTESIAN_POINT('',(1.648969172319E-8,1.550000000377E1,0.E0));
#234=VERTEX_POINT('',#233);
#235=CARTESIAN_POINT('',(1.648968817047E-8,-1.550000000377E1,0.E0));
#236=VERTEX_POINT('',#235);
#237=CARTESIAN_POINT('',(1.5E2,9.E0,0.E0));
#238=CARTESIAN_POINT('',(1.5E2,-9.E0,0.E0));
#239=VERTEX_POINT('',#237);
#240=VERTEX_POINT('',#238);
#241=CARTESIAN_POINT('',(2.839640350927E0,-1.316954352339E1,0.E0));
#242=CARTESIAN_POINT('',(2.839640350927E0,1.316954352339E1,0.E0));
#243=VERTEX_POINT('',#241);
#244=VERTEX_POINT('',#242);
#245=CARTESIAN_POINT('',(-6.E1,0.E0,0.E0));
#246=DIRECTION('',(1.E0,0.E0,0.E0));
#247=DIRECTION('',(0.E0,-1.E0,0.E0));
#248=AXIS2_PLACEMENT_3D('',#245,#246,#247);
#249=PLANE('',#248);
#251=ORIENTED_EDGE('',*,*,#250,.F.);
#253=ORIENTED_EDGE('',*,*,#252,.T.);
#254=EDGE_LOOP('',(#251,#253));
#255=FACE_OUTER_BOUND('',#254,.F.);
#257=ORIENTED_EDGE('',*,*,#256,.T.);
#259=ORIENTED_EDGE('',*,*,#258,.T.);
#260=EDGE_LOOP('',(#257,#259));
#261=FACE_BOUND('',#260,.F.);
#262=ADVANCED_FACE('',(#255,#261),#249,.F.);
#263=CARTESIAN_POINT('',(-7.05E1,0.E0,0.E0));
#264=DIRECTION('',(1.E0,0.E0,0.E0));
#265=DIRECTION('',(0.E0,-1.E0,0.E0));
#266=AXIS2_PLACEMENT_3D('',#263,#264,#265);
#267=CYLINDRICAL_SURFACE('',#266,1.55E1);
#269=ORIENTED_EDGE('',*,*,#268,.T.);
#270=ORIENTED_EDGE('',*,*,#250,.T.);
#272=ORIENTED_EDGE('',*,*,#271,.F.);
#274=ORIENTED_EDGE('',*,*,#273,.T.);
#275=EDGE_LOOP('',(#269,#270,#272,#274));
#276=FACE_OUTER_BOUND('',#275,.F.);
#277=ADVANCED_FACE('',(#276),#267,.T.);
#278=CARTESIAN_POINT('',(-7.05E1,0.E0,0.E0));
#279=DIRECTION('',(1.E0,0.E0,0.E0));
#280=DIRECTION('',(0.E0,-1.E0,0.E0));
#281=AXIS2_PLACEMENT_3D('',#278,#279,#280);
#282=CYLINDRICAL_SURFACE('',#281,1.55E1);
#283=ORIENTED_EDGE('',*,*,#268,.F.);
#285=ORIENTED_EDGE('',*,*,#284,.T.);
#286=ORIENTED_EDGE('',*,*,#271,.T.);
#287=ORIENTED_EDGE('',*,*,#252,.F.);
#288=EDGE_LOOP('',(#283,#285,#286,#287));
#289=FACE_OUTER_BOUND('',#288,.F.);
#290=ADVANCED_FACE('',(#289),#282,.T.);
#291=CARTESIAN_POINT('',(2.924606253865E0,0.E0,0.E0));
#292=DIRECTION('',(1.E0,0.E0,0.E0));
#293=DIRECTION('',(0.E0,9.999999554582E-1,-2.984686666103E-4));
#294=AXIS2_PLACEMENT_3D('',#291,#292,#293);
#295=TOROIDAL_SURFACE('',#294,1.616834008123E1,3.E0);
#296=ORIENTED_EDGE('',*,*,#284,.F.);
#298=ORIENTED_EDGE('',*,*,#297,.T.);
#300=ORIENTED_EDGE('',*,*,#299,.T.);
#302=ORIENTED_EDGE('',*,*,#301,.F.);
#303=EDGE_LOOP('',(#296,#298,#300,#302));
#304=FACE_OUTER_BOUND('',#303,.F.);
#305=ADVANCED_FACE('',(#304),#295,.F.);
#306=CARTESIAN_POINT('',(2.924606253399E0,0.E0,0.E0));
#307=DIRECTION('',(1.E0,0.E0,0.E0));
#308=DIRECTION('',(0.E0,-9.999999566152E-1,2.945666685951E-4));
#309=AXIS2_PLACEMENT_3D('',#306,#307,#308);
#310=TOROIDAL_SURFACE('',#309,1.616834008125E1,3.E0);
#311=ORIENTED_EDGE('',*,*,#273,.F.);
#312=ORIENTED_EDGE('',*,*,#301,.T.);
#314=ORIENTED_EDGE('',*,*,#313,.T.);
#315=ORIENTED_EDGE('',*,*,#297,.F.);
#316=EDGE_LOOP('',(#311,#312,#314,#315));
#317=FACE_OUTER_BOUND('',#316,.F.);
#318=ADVANCED_FACE('',(#317),#310,.F.);
#319=CARTESIAN_POINT('',(7.641982015815E1,0.E0,0.E0));
#320=DIRECTION('',(-1.E0,0.E0,0.E0));
#321=DIRECTION('',(0.E0,1.E0,0.E0));
#322=AXIS2_PLACEMENT_3D('',#319,#320,#321);
#323=CONICAL_SURFACE('',#322,1.108477176219E1,1.622946224080E0);
#324=ORIENTED_EDGE('',*,*,#313,.F.);
#326=ORIENTED_EDGE('',*,*,#325,.F.);
#328=ORIENTED_EDGE('',*,*,#327,.F.);
#330=ORIENTED_EDGE('',*,*,#329,.T.);
#331=EDGE_LOOP('',(#324,#326,#328,#330));
#332=FACE_OUTER_BOUND('',#331,.F.);
#333=ADVANCED_FACE('',(#332),#323,.T.);
#334=CARTESIAN_POINT('',(7.641982015815E1,0.E0,0.E0));
#335=DIRECTION('',(-1.E0,0.E0,0.E0));
#336=DIRECTION('',(0.E0,1.E0,0.E0));
#337=AXIS2_PLACEMENT_3D('',#334,#335,#336);
#338=CONICAL_SURFACE('',#337,1.108477176219E1,1.622946224080E0);
#339=ORIENTED_EDGE('',*,*,#299,.F.);
#340=ORIENTED_EDGE('',*,*,#329,.F.);
#342=ORIENTED_EDGE('',*,*,#341,.T.);
#343=ORIENTED_EDGE('',*,*,#325,.T.);
#344=EDGE_LOOP('',(#339,#340,#342,#343));
#345=FACE_OUTER_BOUND('',#344,.F.);
#346=ADVANCED_FACE('',(#345),#338,.T.);
#347=CARTESIAN_POINT('',(1.5E2,0.E0,0.E0));
#348=DIRECTION('',(1.E0,0.E0,0.E0));
#349=DIRECTION('',(0.E0,-1.E0,0.E0));
#350=AXIS2_PLACEMENT_3D('',#347,#348,#349);
#351=PLANE('',#350);
#352=ORIENTED_EDGE('',*,*,#327,.T.);
#353=ORIENTED_EDGE('',*,*,#341,.F.);
#354=EDGE_LOOP('',(#352,#353));
#355=FACE_OUTER_BOUND('',#354,.F.);
#356=ADVANCED_FACE('',(#355),#351,.T.);
#357=CARTESIAN_POINT('',(-5.9E1,0.E0,0.E0));
#358=DIRECTION('',(-1.E0,0.E0,0.E0));
#359=DIRECTION('',(0.E0,1.E0,0.E0));
#360=AXIS2_PLACEMENT_3D('',#357,#358,#359);
#361=CONICAL_SURFACE('',#360,1.05E1,4.5E1);
#362=ORIENTED_EDGE('',*,*,#256,.F.);
#364=ORIENTED_EDGE('',*,*,#363,.F.);
#366=ORIENTED_EDGE('',*,*,#365,.T.);
#368=ORIENTED_EDGE('',*,*,#367,.T.);
#369=EDGE_LOOP('',(#362,#364,#366,#368));
#370=FACE_OUTER_BOUND('',#369,.F.);
#371=ADVANCED_FACE('',(#370),#361,.F.);
#372=CARTESIAN_POINT('',(-5.9E1,0.E0,0.E0));
#373=DIRECTION('',(-1.E0,0.E0,0.E0));
#374=DIRECTION('',(0.E0,1.E0,0.E0));
#375=AXIS2_PLACEMENT_3D('',#372,#373,#374);
#376=CONICAL_SURFACE('',#375,1.05E1,4.5E1);
#377=ORIENTED_EDGE('',*,*,#258,.F.);
#378=ORIENTED_EDGE('',*,*,#367,.F.);
#380=ORIENTED_EDGE('',*,*,#379,.F.);
#381=ORIENTED_EDGE('',*,*,#363,.T.);
#382=EDGE_LOOP('',(#377,#378,#380,#381));
#383=FACE_OUTER_BOUND('',#382,.F.);
#384=ADVANCED_FACE('',(#383),#376,.F.);
#385=CARTESIAN_POINT('',(-2.985641532520E1,0.E0,0.E0));
#386=DIRECTION('',(-1.E0,0.E0,0.E0));
#387=DIRECTION('',(0.E0,1.E0,0.E0));
#388=AXIS2_PLACEMENT_3D('',#385,#386,#387);
#389=CYLINDRICAL_SURFACE('',#388,9.5E0);
#391=ORIENTED_EDGE('',*,*,#390,.T.);
#392=ORIENTED_EDGE('',*,*,#379,.T.);
#394=ORIENTED_EDGE('',*,*,#393,.F.);
#396=ORIENTED_EDGE('',*,*,#395,.F.);
#397=EDGE_LOOP('',(#391,#392,#394,#396));
#398=FACE_OUTER_BOUND('',#397,.F.);
#399=ADVANCED_FACE('',(#398),#389,.F.);
#400=CARTESIAN_POINT('',(-2.985641532520E1,0.E0,0.E0));
#401=DIRECTION('',(-1.E0,0.E0,0.E0));
#402=DIRECTION('',(0.E0,1.E0,0.E0));
#403=AXIS2_PLACEMENT_3D('',#400,#401,#402);
#404=CYLINDRICAL_SURFACE('',#403,9.5E0);
#405=ORIENTED_EDGE('',*,*,#390,.F.);
#407=ORIENTED_EDGE('',*,*,#406,.T.);
#408=ORIENTED_EDGE('',*,*,#393,.T.);
#409=ORIENTED_EDGE('',*,*,#365,.F.);
#410=EDGE_LOOP('',(#405,#407,#408,#409));
#411=FACE_OUTER_BOUND('',#410,.F.);
#412=ADVANCED_FACE('',(#411),#404,.F.);
#413=CARTESIAN_POINT('',(-3.512231056554E1,0.E0,0.E0));
#414=DIRECTION('',(-1.E0,0.E0,0.E0));
#415=DIRECTION('',(0.E0,1.E0,0.E0));
#416=AXIS2_PLACEMENT_3D('',#413,#414,#415);
#417=CONICAL_SURFACE('',#416,6.375E0,5.9E1);
#419=ORIENTED_EDGE('',*,*,#418,.T.);
#421=ORIENTED_EDGE('',*,*,#420,.T.);
#423=ORIENTED_EDGE('',*,*,#422,.T.);
#424=ORIENTED_EDGE('',*,*,#406,.F.);
#426=ORIENTED_EDGE('',*,*,#425,.F.);
#427=EDGE_LOOP('',(#419,#421,#423,#424,#426));
#428=FACE_OUTER_BOUND('',#427,.F.);
#429=ADVANCED_FACE('',(#428),#417,.F.);
#430=CARTESIAN_POINT('',(-6.E1,0.E0,0.E0));
#431=DIRECTION('',(-1.E0,0.E0,0.E0));
#432=DIRECTION('',(0.E0,0.E0,1.E0));
#433=AXIS2_PLACEMENT_3D('',#430,#431,#432);
#434=CYLINDRICAL_SURFACE('',#433,3.25E0);
#436=ORIENTED_EDGE('',*,*,#435,.T.);
#438=ORIENTED_EDGE('',*,*,#437,.T.);
#440=ORIENTED_EDGE('',*,*,#439,.T.);
#442=ORIENTED_EDGE('',*,*,#441,.F.);
#443=ORIENTED_EDGE('',*,*,#418,.F.);
#445=ORIENTED_EDGE('',*,*,#444,.F.);
#446=EDGE_LOOP('',(#436,#438,#440,#442,#443,#445));
#447=FACE_OUTER_BOUND('',#446,.F.);
#448=ADVANCED_FACE('',(#447),#434,.F.);
#449=CARTESIAN_POINT('',(-6.E1,0.E0,0.E0));
#450=DIRECTION('',(-1.E0,0.E0,0.E0));
#451=DIRECTION('',(0.E0,0.E0,1.E0));
#452=AXIS2_PLACEMENT_3D('',#449,#450,#451);
#453=CYLINDRICAL_SURFACE('',#452,3.25E0);
#454=ORIENTED_EDGE('',*,*,#435,.F.);
#456=ORIENTED_EDGE('',*,*,#455,.F.);
#457=ORIENTED_EDGE('',*,*,#420,.F.);
#458=ORIENTED_EDGE('',*,*,#441,.T.);
#460=ORIENTED_EDGE('',*,*,#459,.T.);
#462=ORIENTED_EDGE('',*,*,#461,.T.);
#463=EDGE_LOOP('',(#454,#456,#457,#458,#460,#462));
#464=FACE_OUTER_BOUND('',#463,.F.);
#465=ADVANCED_FACE('',(#464),#453,.F.);
#466=CARTESIAN_POINT('',(-3.512231056554E1,0.E0,0.E0));
#467=DIRECTION('',(-1.E0,0.E0,0.E0));
#468=DIRECTION('',(0.E0,1.E0,0.E0));
#469=AXIS2_PLACEMENT_3D('',#466,#467,#468);
#470=CONICAL_SURFACE('',#469,6.375E0,5.9E1);
#471=ORIENTED_EDGE('',*,*,#444,.T.);
#472=ORIENTED_EDGE('',*,*,#425,.T.);
#473=ORIENTED_EDGE('',*,*,#395,.T.);
#474=ORIENTED_EDGE('',*,*,#422,.F.);
#475=ORIENTED_EDGE('',*,*,#455,.T.);
#476=EDGE_LOOP('',(#471,#472,#473,#474,#475));
#477=FACE_OUTER_BOUND('',#476,.F.);
#478=ADVANCED_FACE('',(#477),#470,.F.);
#479=CARTESIAN_POINT('',(1.431E2,0.E0,0.E0));
#480=DIRECTION('',(-1.E0,0.E0,0.E0));
#481=DIRECTION('',(0.E0,1.E0,0.E0));
#482=AXIS2_PLACEMENT_3D('',#479,#480,#481);
#483=CONICAL_SURFACE('',#482,2.4375E0,5.839249775375E1);
#484=ORIENTED_EDGE('',*,*,#439,.F.);
#486=ORIENTED_EDGE('',*,*,#485,.T.);
#488=ORIENTED_EDGE('',*,*,#487,.F.);
#490=ORIENTED_EDGE('',*,*,#489,.F.);
#491=ORIENTED_EDGE('',*,*,#459,.F.);
#492=EDGE_LOOP('',(#484,#486,#488,#490,#491));
#493=FACE_OUTER_BOUND('',#492,.F.);
#494=ADVANCED_FACE('',(#493),#483,.F.);
#495=CARTESIAN_POINT('',(1.431E2,0.E0,0.E0));
#496=DIRECTION('',(-1.E0,0.E0,0.E0));
#497=DIRECTION('',(0.E0,1.E0,0.E0));
#498=AXIS2_PLACEMENT_3D('',#495,#496,#497);
#499=CONICAL_SURFACE('',#498,2.4375E0,5.839249775375E1);
#500=ORIENTED_EDGE('',*,*,#437,.F.);
#501=ORIENTED_EDGE('',*,*,#461,.F.);
#502=ORIENTED_EDGE('',*,*,#489,.T.);
#504=ORIENTED_EDGE('',*,*,#503,.T.);
#505=ORIENTED_EDGE('',*,*,#485,.F.);
#506=EDGE_LOOP('',(#500,#501,#502,#504,#505));
#507=FACE_OUTER_BOUND('',#506,.F.);
#508=ADVANCED_FACE('',(#507),#499,.F.);
#509=CARTESIAN_POINT('',(1.429442210168E2,0.E0,0.E0));
#510=DIRECTION('',(1.E0,0.E0,0.E0));
#511=DIRECTION('',(0.E0,-1.E0,0.E0));
#512=AXIS2_PLACEMENT_3D('',#509,#510,#511);
#513=CONICAL_SURFACE('',#512,9.145727681608E-1,4.729061004264E1);
#515=ORIENTED_EDGE('',*,*,#514,.T.);
#516=ORIENTED_EDGE('',*,*,#503,.F.);
#518=ORIENTED_EDGE('',*,*,#517,.F.);
#519=EDGE_LOOP('',(#515,#516,#518));
#520=FACE_OUTER_BOUND('',#519,.F.);
#521=ADVANCED_FACE('',(#520),#513,.T.);
#522=CARTESIAN_POINT('',(1.429442210168E2,0.E0,0.E0));
#523=DIRECTION('',(1.E0,0.E0,0.E0));
#524=DIRECTION('',(0.E0,-1.E0,0.E0));
#525=AXIS2_PLACEMENT_3D('',#522,#523,#524);
#526=CONICAL_SURFACE('',#525,9.145727681608E-1,4.729061004264E1);
#527=ORIENTED_EDGE('',*,*,#514,.F.);
#528=ORIENTED_EDGE('',*,*,#517,.T.);
#529=ORIENTED_EDGE('',*,*,#487,.T.);
#530=EDGE_LOOP('',(#527,#528,#529));
#531=FACE_OUTER_BOUND('',#530,.F.);
#532=ADVANCED_FACE('',(#531),#526,.T.);
#533=CLOSED_SHELL('',(#262,#277,#290,#305,#318,#333,#346,#356,#371,#384,#399,
#412,#429,#448,#465,#478,#494,#508,#521,#532));
#534=CARTESIAN_POINT('',(-5.85E1,0.E0,0.E0));
#535=DIRECTION('',(1.E0,0.E0,0.E0));
#536=DIRECTION('',(0.E0,-1.E0,0.E0));
#537=AXIS2_PLACEMENT_3D('',#534,#535,#536);
#539=DIRECTION('',(1.E0,0.E0,0.E0));
#540=VECTOR('',#539,1.95E1);
#541=CARTESIAN_POINT('',(-5.85E1,1.E1,0.E0));
#542=LINE('',#541,#540);
#543=CARTESIAN_POINT('',(-5.85E1,0.E0,0.E0));
#544=DIRECTION('',(1.E0,0.E0,0.E0));
#545=DIRECTION('',(0.E0,1.E0,0.E0));
#546=AXIS2_PLACEMENT_3D('',#543,#544,#545);
#548=DIRECTION('',(1.E0,0.E0,0.E0));
#549=VECTOR('',#548,1.95E1);
#550=CARTESIAN_POINT('',(-5.85E1,-1.E1,0.E0));
#551=LINE('',#550,#549);
#552=CARTESIAN_POINT('',(-3.9E1,0.E0,0.E0));
#553=DIRECTION('',(1.E0,0.E0,0.E0));
#554=DIRECTION('',(0.E0,1.E0,0.E0));
#555=AXIS2_PLACEMENT_3D('',#552,#553,#554);
#557=CARTESIAN_POINT('',(-3.9E1,0.E0,0.E0));
#558=DIRECTION('',(-1.E0,0.E0,0.E0));
#559=DIRECTION('',(0.E0,1.E0,0.E0));
#560=AXIS2_PLACEMENT_3D('',#557,#558,#559);
#562=CARTESIAN_POINT('',(-3.9E1,0.E0,0.E0));
#563=DIRECTION('',(-1.E0,0.E0,0.E0));
#564=DIRECTION('',(0.E0,1.E0,0.E0));
#565=AXIS2_PLACEMENT_3D('',#562,#563,#564);
#567=CARTESIAN_POINT('',(-3.9E1,0.E0,0.E0));
#568=DIRECTION('',(-1.E0,0.E0,0.E0));
#569=DIRECTION('',(0.E0,-1.E0,0.E0));
#570=AXIS2_PLACEMENT_3D('',#567,#568,#569);
#572=CARTESIAN_POINT('',(-3.9E1,1.E1,0.E0));
#573=CARTESIAN_POINT('',(-3.9E1,-1.E1,0.E0));
#574=VERTEX_POINT('',#572);
#575=VERTEX_POINT('',#573);
#576=CARTESIAN_POINT('',(-5.85E1,1.E1,0.E0));
#577=VERTEX_POINT('',#576);
#578=CARTESIAN_POINT('',(-5.85E1,-1.E1,0.E0));
#579=VERTEX_POINT('',#578);
#580=CARTESIAN_POINT('',(-3.9E1,9.5E0,0.E0));
#581=CARTESIAN_POINT('',(-3.9E1,-9.5E0,0.E0));
#582=VERTEX_POINT('',#580);
#583=VERTEX_POINT('',#581);
#584=CARTESIAN_POINT('',(-2.985641532520E1,0.E0,0.E0));
#585=DIRECTION('',(-1.E0,0.E0,0.E0));
#586=DIRECTION('',(0.E0,1.E0,0.E0));
#587=AXIS2_PLACEMENT_3D('',#584,#585,#586);
#588=CYLINDRICAL_SURFACE('',#587,1.E1);
#590=ORIENTED_EDGE('',*,*,#589,.T.);
#592=ORIENTED_EDGE('',*,*,#591,.T.);
#594=ORIENTED_EDGE('',*,*,#593,.F.);
#596=ORIENTED_EDGE('',*,*,#595,.T.);
#597=EDGE_LOOP('',(#590,#592,#594,#596));
#598=FACE_OUTER_BOUND('',#597,.F.);
#599=ADVANCED_FACE('',(#598),#588,.F.);
#600=CARTESIAN_POINT('',(-2.985641532520E1,0.E0,0.E0));
#601=DIRECTION('',(-1.E0,0.E0,0.E0));
#602=DIRECTION('',(0.E0,1.E0,0.E0));
#603=AXIS2_PLACEMENT_3D('',#600,#601,#602);
#604=CYLINDRICAL_SURFACE('',#603,1.E1);
#605=ORIENTED_EDGE('',*,*,#589,.F.);
#607=ORIENTED_EDGE('',*,*,#606,.T.);
#608=ORIENTED_EDGE('',*,*,#593,.T.);
#610=ORIENTED_EDGE('',*,*,#609,.F.);
#611=EDGE_LOOP('',(#605,#607,#608,#610));
#612=FACE_OUTER_BOUND('',#611,.F.);
#613=ADVANCED_FACE('',(#612),#604,.F.);
#614=CARTESIAN_POINT('',(-3.9E1,0.E0,0.E0));
#615=DIRECTION('',(-1.E0,0.E0,0.E0));
#616=DIRECTION('',(0.E0,1.E0,0.E0));
#617=AXIS2_PLACEMENT_3D('',#614,#615,#616);
#618=PLANE('',#617);
#619=ORIENTED_EDGE('',*,*,#609,.T.);
#620=ORIENTED_EDGE('',*,*,#591,.F.);
#621=EDGE_LOOP('',(#619,#620));
#622=FACE_OUTER_BOUND('',#621,.F.);
#624=ORIENTED_EDGE('',*,*,#623,.T.);
#626=ORIENTED_EDGE('',*,*,#625,.T.);
#627=EDGE_LOOP('',(#624,#626));
#628=FACE_BOUND('',#627,.F.);
#629=ADVANCED_FACE('',(#622,#628),#618,.T.);
#630=OPEN_SHELL('',(#599,#613,#629));
#631=MANIFOLD_SOLID_BREP('',#533);
#632=SHELL_BASED_SURFACE_MODEL('',(#630));
#634=DIMENSIONAL_EXPONENTS(0.E0,0.E0,0.E0,0.E0,0.E0,0.E0,0.E0);
#636=PLANE_ANGLE_MEASURE_WITH_UNIT(PLANE_ANGLE_MEASURE(1.745329251994E-2),#635);
#637=(CONVERSION_BASED_UNIT('DEGREE',#636)NAMED_UNIT(*)PLANE_ANGLE_UNIT());
#639=UNCERTAINTY_MEASURE_WITH_UNIT(LENGTH_MEASURE(2.315101768514E-2),#633,
'closure',
'Maximum model space distance between geometric entities at asserted connectivities');
#640=(GEOMETRIC_REPRESENTATION_CONTEXT(3)GLOBAL_UNCERTAINTY_ASSIGNED_CONTEXT((
#639))GLOBAL_UNIT_ASSIGNED_CONTEXT((#633,#637,#638))REPRESENTATION_CONTEXT
('ID1','3'));
#643=CARTESIAN_POINT('',(0.E0,0.E0,0.E0));
#644=DIRECTION('',(0.E0,0.E0,1.E0));
#645=DIRECTION('',(1.E0,0.E0,0.E0));
#648=SHAPE_REPRESENTATION_RELATIONSHIP('','',#647,#641);
#649=SHAPE_REPRESENTATION_RELATIONSHIP('','',#647,#642);
#650=APPLICATION_CONTEXT(
'CONFIGURATION CONTROLLED 3D DESIGNS OF MECHANICAL PARTS AND ASSEMBLIES');
#651=APPLICATION_PROTOCOL_DEFINITION('international standard',
'config_control_design',1994,#650);
#652=DESIGN_CONTEXT('',#650,'design');
#653=MECHANICAL_CONTEXT('',#650,'mechanical');
#654=PRODUCT('00114-2000-D0011','00114-2000-D0011','NOT SPECIFIED',(#653));
#655=PRODUCT_DEFINITION_FORMATION_WITH_SPECIFIED_SOURCE('26','LAST_VERSION',
#654,.MADE.);
#659=PRODUCT_CATEGORY('part','');
#660=PRODUCT_RELATED_PRODUCT_CATEGORY('detail','',(#654));
#661=PRODUCT_CATEGORY_RELATIONSHIP('','',#659,#660);
#662=SECURITY_CLASSIFICATION_LEVEL('unclassified');
#663=SECURITY_CLASSIFICATION('','',#662);
#664=CC_DESIGN_SECURITY_CLASSIFICATION(#663,(#655));
#665=APPROVAL_STATUS('approved');
#666=APPROVAL(#665,'');
#667=CC_DESIGN_APPROVAL(#666,(#663,#655,#656));
#668=CALENDAR_DATE(117,26,10);
#669=COORDINATED_UNIVERSAL_TIME_OFFSET(5,0,.BEHIND.);
#670=LOCAL_TIME(11,55,1.1E1,#669);
#671=DATE_AND_TIME(#668,#670);
#672=APPROVAL_DATE_TIME(#671,#666);
#673=DATE_TIME_ROLE('creation_date');
#674=CC_DESIGN_DATE_AND_TIME_ASSIGNMENT(#671,#673,(#656));
#675=DATE_TIME_ROLE('classification_date');
#676=CC_DESIGN_DATE_AND_TIME_ASSIGNMENT(#671,#675,(#663));
#677=PERSON('UNSPECIFIED','UNSPECIFIED',$,$,$,$);
#678=ORGANIZATION('UNSPECIFIED','UNSPECIFIED','UNSPECIFIED');
#679=PERSON_AND_ORGANIZATION(#677,#678);
#680=APPROVAL_ROLE('approver');
#681=APPROVAL_PERSON_ORGANIZATION(#679,#666,#680);
#682=PERSON_AND_ORGANIZATION_ROLE('creator');
#683=CC_DESIGN_PERSON_AND_ORGANIZATION_ASSIGNMENT(#679,#682,(#655,#656));
#684=PERSON_AND_ORGANIZATION_ROLE('design_supplier');
#685=CC_DESIGN_PERSON_AND_ORGANIZATION_ASSIGNMENT(#679,#684,(#655));
#686=PERSON_AND_ORGANIZATION_ROLE('classification_officer');
#687=CC_DESIGN_PERSON_AND_ORGANIZATION_ASSIGNMENT(#679,#686,(#663));
#688=PERSON_AND_ORGANIZATION_ROLE('design_owner');
#689=CC_DESIGN_PERSON_AND_ORGANIZATION_ASSIGNMENT(#679,#688,(#654));
#5=CIRCLE('',#4,1.55E1);
#10=CIRCLE('',#9,1.55E1);
#15=CIRCLE('',#14,1.15E1);
#20=CIRCLE('',#19,1.15E1);
#33=CIRCLE('',#32,1.55E1);
#38=CIRCLE('',#37,1.55E1);
#43=CIRCLE('',#42,3.E0);
#48=CIRCLE('',#47,3.E0);
#53=CIRCLE('',#52,1.316954352339E1);
#62=CIRCLE('',#61,9.E0);
#71=CIRCLE('',#70,1.316954352338E1);
#76=CIRCLE('',#75,9.E0);
#81=CIRCLE('',#80,9.5E0);
#90=CIRCLE('',#89,9.5E0);
#107=CIRCLE('',#106,9.5E0);
#112=CIRCLE('',#111,9.5E0);
#117=CIRCLE('',#116,3.25E0);
#122=CIRCLE('',#121,3.25E0);
#131=CIRCLE('',#130,3.25E0);
#136=CIRCLE('',#135,3.25E0);
#145=CIRCLE('',#144,3.25E0);
#150=CIRCLE('',#149,3.25E0);
#155=CIRCLE('',#154,3.25E0);
#168=CIRCLE('',#167,3.25E0);
#185=CIRCLE('',#184,1.625E0);
#194=CIRCLE('',#193,1.625E0);
#250=EDGE_CURVE('',#197,#198,#5,.T.);
#252=EDGE_CURVE('',#197,#198,#10,.T.);
#256=EDGE_CURVE('',#221,#222,#15,.T.);
#258=EDGE_CURVE('',#222,#221,#20,.T.);
#268=EDGE_CURVE('',#234,#197,#24,.T.);
#271=EDGE_CURVE('',#236,#198,#28,.T.);
#273=EDGE_CURVE('',#236,#234,#33,.T.);
#284=EDGE_CURVE('',#234,#236,#38,.T.);
#297=EDGE_CURVE('',#234,#244,#43,.T.);
#299=EDGE_CURVE('',#244,#243,#71,.T.);
#301=EDGE_CURVE('',#236,#243,#48,.T.);
#313=EDGE_CURVE('',#243,#244,#53,.T.);
#325=EDGE_CURVE('',#240,#243,#57,.T.);
#327=EDGE_CURVE('',#239,#240,#62,.T.);
#329=EDGE_CURVE('',#239,#244,#66,.T.);
#341=EDGE_CURVE('',#239,#240,#76,.T.);
#363=EDGE_CURVE('',#202,#221,#94,.T.);
#365=EDGE_CURVE('',#202,#206,#81,.T.);
#367=EDGE_CURVE('',#206,#222,#85,.T.);
#379=EDGE_CURVE('',#202,#206,#90,.T.);
#390=EDGE_CURVE('',#201,#202,#98,.T.);
#393=EDGE_CURVE('',#205,#206,#102,.T.);
#395=EDGE_CURVE('',#201,#205,#107,.T.);
#406=EDGE_CURVE('',#201,#205,#112,.T.);
#418=EDGE_CURVE('',#209,#210,#117,.T.);
#420=EDGE_CURVE('',#210,#212,#122,.T.);
#422=EDGE_CURVE('',#212,#205,#163,.T.);
#425=EDGE_CURVE('',#209,#201,#159,.T.);
#435=EDGE_CURVE('',#214,#216,#126,.T.);
#437=EDGE_CURVE('',#216,#230,#131,.T.);
#439=EDGE_CURVE('',#230,#218,#136,.T.);
#441=EDGE_CURVE('',#210,#218,#140,.T.);
#444=EDGE_CURVE('',#214,#209,#155,.T.);
#455=EDGE_CURVE('',#212,#214,#168,.T.);
#459=EDGE_CURVE('',#218,#232,#145,.T.);
#461=EDGE_CURVE('',#232,#216,#150,.T.);
#485=EDGE_CURVE('',#230,#226,#176,.T.);
#487=EDGE_CURVE('',#228,#226,#194,.T.);
#489=EDGE_CURVE('',#232,#228,#172,.T.);
#503=EDGE_CURVE('',#228,#226,#185,.T.);
#514=EDGE_CURVE('',#225,#226,#180,.T.);
#517=EDGE_CURVE('',#225,#228,#189,.T.);
#538=CIRCLE('',#537,1.E1);
#547=CIRCLE('',#546,1.E1);
#556=CIRCLE('',#555,1.E1);
#561=CIRCLE('',#560,1.E1);
#566=CIRCLE('',#565,9.5E0);
#571=CIRCLE('',#570,9.5E0);
#589=EDGE_CURVE('',#577,#574,#542,.T.);
#591=EDGE_CURVE('',#574,#575,#561,.T.);
#593=EDGE_CURVE('',#579,#575,#551,.T.);
#595=EDGE_CURVE('',#579,#577,#538,.T.);
#606=EDGE_CURVE('',#577,#579,#547,.T.);
#609=EDGE_CURVE('',#574,#575,#556,.T.);
#623=EDGE_CURVE('',#582,#583,#566,.T.);
#625=EDGE_CURVE('',#583,#582,#571,.T.);
#633=(LENGTH_UNIT()NAMED_UNIT(*)SI_UNIT(.MILLI.,.METRE.));
#635=(NAMED_UNIT(*)PLANE_ANGLE_UNIT()SI_UNIT($,.RADIAN.));
#638=(NAMED_UNIT(*)SI_UNIT($,.STERADIAN.)SOLID_ANGLE_UNIT());
#641=ADVANCED_BREP_SHAPE_REPRESENTATION('',(#631),#640);
#642=MANIFOLD_SURFACE_SHAPE_REPRESENTATION('',(#632),#640);
#646=AXIS2_PLACEMENT_3D('',#643,#644,#645);
#647=SHAPE_REPRESENTATION('',(#646),#640);
#656=PRODUCT_DEFINITION('design','',#655,#652);
#657=PRODUCT_DEFINITION_SHAPE('','SHAPE FOR 00114-2000-D0011.',#656);
#658=SHAPE_DEFINITION_REPRESENTATION(#657,#647);
ENDSEC;
END-ISO-10303-21;
